                                                                        S      1
,,9HI-DEAS 15,24HE:\cup_nopenetration.igs,,28HI-DEAS 3D IGES Translator G      1
15,32,38,6,308,15,3HAny,1.0D0,2,2HMM,1,0.0D0,15H20151102.131353,.01D0,  G      2
10000000.0D0,,,11,0,15H20151102.131353,;                                G      3
     128       1       0       0       0       0       0       000010001D      1
     128       0     -53      27       4                      F1       1D      2
     502      28       0       0       0       0       0       000010000D      3
     502       0       0       4       1                               0D      4
     126      32       0       0       0       0       0       000010001D      5
     126       0     -53       5       2                      E1       1D      6
     504      37       0       0       0       0       0       000010001D      7
     504       0       0       1       1                               0D      8
     126      38       0       0       0       0       0       000010500D      9
     126       0       0       2       1                               0D     10
     126      40       0       0       0       0       0       000010500D     11
     126       0       0       3       1                               0D     12
     126      43       0       0       0       0       0       000010001D     13
     126       0     -53      12       2                      E6       6D     14
     126      55       0       0       0       0       0       000010500D     15
     126       0       0       3       1                               0D     16
     508      58       0       0       0       0       0       000010001D     17
     508       0       0       1       1                               0D     18
     510      59       0       0       0       0       0       000010001D     19
     510       0     -53       1       1                      F1       1D     20
     128      60       0       0       0       0       0       000010001D     21
     128       0     -53       6       1                      F2       2D     22
     126      66       0       0       0       0       0       000010001D     23
     126       0     -53      11       2                      E7       7D     24
     126      77       0       0       0       0       0       000010500D     25
     126       0       0       8       2                               0D     26
     508      85       0       0       0       0       0       000010001D     27
     508       0       0       1       1                               0D     28
     126      86       0       0       0       0       0       000010500D     29
     126       0       0       9       2                               0D     30
     508      95       0       0       0       0       0       000010001D     31
     508       0       0       1       1                               0D     32
     510      96       0       0       0       0       0       000010001D     33
     510       0     -53       1       1                      F2       2D     34
     128      97       0       0       0       0       0       000010001D     35
     128       0     -53      28       4                      F3       3D     36
     126     125       0       0       0       0       0       000010001D     37
     126       0     -53       4       2                      E3       3D     38
     126     129       0       0       0       0       0       000010500D     39
     126       0       0       2       1                               0D     40
     126     131       0       0       0       0       0       000010500D     41
     126       0       0       3       1                               0D     42
     126     134       0       0       0       0       0       000010500D     43
     126       0       0       3       1                               0D     44
     508     137       0       0       0       0       0       000010001D     45
     508       0       0       1       1                               0D     46
     510     138       0       0       0       0       0       000010001D     47
     510       0     -53       1       1                      F3       3D     48
     514     139       0       0       0       0       0       000010001D     49
     514       0       0       1       1                               0D     50
     186     140       0       0       0       0       0       000000001D     51
     186       0       0       1       0                               0D     52
     314     141       0       0       0       0       0       000000200D     53
     314       0       5       1       0                               0D     54
128,6,2,2,2,1,0,0,0,0,0.0D0,0.0D0,0.0D0,1.2247448713916D0,             1P      1
1.2247448713916D0,2.4494897427832D0,2.4494897427832D0,                 1P      2
3.6742346141748D0,3.6742346141748D0,3.6742346141748D0,0.0D0,           1P      3
0.0D0,0.0D0,1.0D0,1.0D0,1.0D0,1.0D0,.5D0,1.0D0,.5D0,1.0D0,.5D0,        1P      4
1.0D0,.70710678118655D0,.35355339059327D0,.70710678118655D0,           1P      5
.35355339059327D0,.70710678118655D0,.35355339059327D0,                 1P      6
.70710678118655D0,1.0D0,.5D0,1.0D0,.5D0,1.0D0,.5D0,1.0D0,              1P      7
-7.9867710935021D0,7.9867710935021D0,0.0D0,-7.986771093502D0,          1P      8
7.986771093502D0,-3.4694469519536D-15,-7.9867710935021D0,              1P      9
7.9867710935021D0,-1.7347234759768D-15,-7.986771093502D0,              1P     10
7.986771093502D0,-1.54074395550978D-30,-7.9867710935021D0,             1P     11
7.9867710935021D0,1.7347234759768D-15,-7.986771093502D0,               1P     12
7.986771093502D0,3.4694469519536D-15,-7.9867710935021D0,               1P     13
7.9867710935021D0,0.0D0,1.7347234759768D-15,15.9735421870041D0,        1P     14
0.0D0,1.73472347597683D-15,15.9735421870043D0,                         1P     15
-19.5635138714907D0,-11.980156640253D0,3.99338554675101D0,             1P     16
-9.7817569357452D0,-23.9603132805064D0,-7.98677109350214D0,            1P     17
-8.67361737988399D-15,-11.980156640253D0,3.99338554675101D0,           1P     18
9.7817569357452D0,-6.93889390390731D-15,15.9735421870043D0,            1P     19
19.5635138714907D0,1.7347234759768D-15,15.9735421870041D0,0.0D0,       1P     20
7.9867710935021D0,7.9867710935021D0,0.0D0,7.986771093502D0,            1P     21
7.986771093502D0,-19.5635138714904D0,-3.993385546751D0,                1P     22
-3.993385546751D0,-9.7817569357452D0,-15.9735421870042D0,              1P     23
-15.9735421870042D0,-8.673617379884D-15,-3.993385546751D0,             1P     24
-3.993385546751D0,9.7817569357452D0,7.986771093502D0,                  1P     25
7.986771093502D0,19.5635138714904D0,7.9867710935021D0,                 1P     26
7.9867710935021D0,0.0D0,0.0D0,3.6742346141748D0,0.0D0,1.0D0;           1P     27
502,4,7.9867710935021D0,7.9867710935021D0,0.0D0,                       3P     28
-7.9867710935021D0,7.9867710935021D0,0.0D0,14.142135623731D0,          3P     29
14.142135623731D0,0.0D0,-14.142135623731D0,14.142135623731D0,          3P     30
0.0D0;                                                                 3P     31
126,2,2,1,0,0,0,0.0D0,0.0D0,0.0D0,1.0D0,1.0D0,1.0D0,1.0D0,             5P     32
.70710678118655D0,1.0D0,7.9867710935021D0,7.9867710935021D0,           5P     33
0.0D0,2.4532694666934D-15,15.973542187004D0,0.0D0,                     5P     34
-7.9867710935021D0,7.9867710935021D0,0.0D0,0.0D0,1.0D0,0.0D0,          5P     35
0.0D0,1.0D0;                                                           5P     36
504,4,5,3,1,3,2,13,3,1,3,1,23,3,3,3,3,37,3,4,3,3;                      7P     37
126,1,1,0,0,1,0,0.0D0,0.0D0,1.0D0,1.0D0,1.0D0,1.0D0,0.0D0,1.0D0,       9P     38
0.0D0,0.0D0,0.0D0,0.0D0,0.0D0,1.0D0,0.0D0,0.0D0,0.0D0;                 9P     39
126,1,1,0,0,1,0,0.0D0,0.0D0,1.0D0,1.0D0,1.0D0,1.0D0,                  11P     40
3.6742346141748D0,0.0D0,0.0D0,3.6742346141748D0,1.0D0,0.0D0,          11P     41
0.0D0,1.0D0,0.0D0,0.0D0,0.0D0;                                        11P     42
126,6,2,1,1,0,0,0.0D0,0.0D0,0.0D0,1.2247448713916D0,                  13P     43
1.2247448713916D0,2.4494897427832D0,2.4494897427832D0,                13P     44
3.6742346141748D0,3.6742346141748D0,3.6742346141748D0,1.0D0,          13P     45
.5D0,1.0D0,.5D0,1.0D0,.5D0,1.0D0,7.9867710935021D0,                   13P     46
7.9867710935021D0,0.0D0,7.986771093502D0,7.986771093502D0,            13P     47
19.56351387149D0,-3.993385546751D0,-3.993385546751D0,                 13P     48
9.7817569357452D0,-15.973542187004D0,-15.973542187004D0,              13P     49
-8.673617379884D-15,-3.993385546751D0,-3.993385546751D0,              13P     50
-9.7817569357452D0,7.9867710935021D0,7.9867710935021D0,               13P     51
-19.56351387149D0,7.9867710935021D0,7.9867710935021D0,0.0D0,          13P     52
0.0D0,3.6742346141748D0,-.707106781186548D0,.707106781186548D0,       13P     53
0.0D0;                                                                13P     54
126,1,1,0,0,1,0,0.0D0,0.0D0,1.0D0,1.0D0,1.0D0,1.0D0,                  15P     55
3.6742346141748D0,1.0D0,0.0D0,0.0D0,1.0D0,0.0D0,0.0D0,1.0D0,          15P     56
0.0D0,0.0D0,0.0D0;                                                    15P     57
508,3,0,7,1,1,1,1,9,0,7,1,0,1,1,11,0,7,2,1,1,1,15;                    17P     58
510,1,1,1,17;                                                         19P     59
128,1,1,1,1,0,0,1,0,0,0.0D0,0.0D0,1.0D0,1.0D0,0.0D0,0.0D0,1.0D0,      21P     60
1.0D0,1.0D0,1.0D0,1.0D0,1.0D0,15.556349186104D0,                      21P     61
15.556349186104D0,-22.0D0,15.556349186104D0,15.556349186104D0,        21P     62
22.0D0,-15.556349186104D0,-15.556349186104D0,-22.0D0,                 21P     63
-15.556349186104D0,-15.556349186104D0,22.0D0,0.0D0,1.0D0,0.0D0,       21P     64
1.0D0;                                                                21P     65
126,6,2,1,1,0,0,0.0D0,0.0D0,0.0D0,.33333333333333D0,                  23P     66
.33333333333333D0,.66666666666667D0,.66666666666667D0,1.0D0,          23P     67
1.0D0,1.0D0,1.0D0,.5D0,1.0D0,.5D0,1.0D0,.5D0,1.0D0,                   23P     68
14.142135623731D0,14.142135623731D0,0.0D0,14.142135623731D0,          23P     69
14.142135623731D0,34.641016151378D0,-7.0710678118655D0,               23P     70
-7.0710678118655D0,17.320508075689D0,-28.284271247462D0,              23P     71
-28.284271247462D0,-6.9388939039072D-15,-7.0710678118655D0,           23P     72
-7.0710678118655D0,-17.320508075689D0,14.142135623731D0,              23P     73
14.142135623731D0,-34.641016151378D0,14.142135623731D0,               23P     74
14.142135623731D0,0.0D0,0.0D0,1.0D0,-.707106781186548D0,              23P     75
.707106781186548D0,0.0D0;                                             23P     76
126,6,2,1,1,0,0,0.0D0,0.0D0,0.0D0,.33333333333333D0,                  25P     77
.33333333333333D0,.66666666666667D0,.66666666666667D0,1.0D0,          25P     78
1.0D0,1.0D0,1.0D0,.5D0,1.0D0,.5D0,1.0D0,.5D0,1.0D0,.5D0,              25P     79
.045454545454545D0,0.0D0,1.2872958216222D0,.045454545454546D0,        25P     80
0.0D0,.89364791081111D0,.72727272727273D0,0.0D0,.5D0,                 25P     81
1.4090909090909D0,0.0D0,.10635208918889D0,.72727272727273D0,          25P     82
0.0D0,-.28729582162222D0,.045454545454545D0,0.0D0,.5D0,               25P     83
.045454545454545D0,0.0D0,0.0D0,1.0D0,0.0D0,0.0D0,1.0D0;               25P     84
508,1,0,7,3,1,1,0,25;                                                 27P     85
126,6,2,1,1,0,0,0.0D0,0.0D0,0.0D0,1.2247448713916D0,                  29P     86
1.2247448713916D0,2.4494897427832D0,2.4494897427832D0,                29P     87
3.6742346141748D0,3.6742346141748D0,3.6742346141748D0,1.0D0,          29P     88
.5D0,1.0D0,.5D0,1.0D0,.5D0,1.0D0,.5D0,.24329545454545D0,0.0D0,        29P     89
.055374684738853D0,.24329545454545D0,0.0D0,.27768734236943D0,         29P     90
.62835227272727D0,0.0D0,.5D0,1.0134090909091D0,0.0D0,                 29P     91
.72231265763057D0,.62835227272727D0,0.0D0,.94462531526115D0,          29P     92
.24329545454545D0,0.0D0,.5D0,.24329545454545D0,0.0D0,0.0D0,           29P     93
3.6742346141748D0,0.0D0,0.0D0,1.0D0;                                  29P     94
508,1,0,7,2,0,1,0,29;                                                 31P     95
510,21,2,1,27,31;                                                     33P     96
128,6,2,2,2,1,0,0,0,0,0.0D0,0.0D0,0.0D0,1.2247448713916D0,            35P     97
1.2247448713916D0,2.4494897427832D0,2.4494897427832D0,                35P     98
3.6742346141748D0,3.6742346141748D0,3.6742346141748D0,0.0D0,          35P     99
0.0D0,0.0D0,1.0D0,1.0D0,1.0D0,1.0D0,.5D0,1.0D0,.5D0,1.0D0,.5D0,       35P    100
1.0D0,.70710678118655D0,.35355339059327D0,.70710678118655D0,          35P    101
.35355339059327D0,.70710678118655D0,.35355339059327D0,                35P    102
.70710678118655D0,1.0D0,.5D0,1.0D0,.5D0,1.0D0,.5D0,1.0D0,             35P    103
14.142135623731D0,14.142135623731D0,0.0D0,14.142135623731D0,          35P    104
14.142135623731D0,-34.641016151378D0,-7.0710678118655D0,              35P    105
-7.0710678118655D0,-17.320508075689D0,-28.284271247462D0,             35P    106
-28.284271247462D0,-6.9388939039072D-15,-7.0710678118655D0,           35P    107
-7.0710678118655D0,17.320508075689D0,14.142135623731D0,               35P    108
14.142135623731D0,34.641016151378D0,14.142135623731D0,                35P    109
14.142135623731D0,0.0D0,-1.7347234759768D-15,28.2842712474618D0,      35P    110
0.0D0,-1.73472347597683D-15,28.2842712474622D0,                       35P    111
-34.6410161513782D0,-21.2132034355964D0,7.07106781186545D0,           35P    112
-17.3205080756889D0,-42.4264068711933D0,-14.1421356237311D0,          35P    113
-6.93889390390731D-15,-21.2132034355964D0,7.07106781186545D0,         35P    114
17.3205080756889D0,-1.38777878078146D-14,28.2842712474622D0,          35P    115
34.6410161513782D0,-1.7347234759768D-15,28.2842712474618D0,           35P    116
0.0D0,-14.142135623731D0,14.142135623731D0,0.0D0,                     35P    117
-14.142135623731D0,14.142135623731D0,-6.9388939039072D-15,            35P    118
-14.142135623731D0,14.142135623731D0,-3.4694469519536D-15,            35P    119
-14.142135623731D0,14.142135623731D0,-1.54074395550978D-30,           35P    120
-14.142135623731D0,14.142135623731D0,3.4694469519536D-15,             35P    121
-14.142135623731D0,14.142135623731D0,6.9388939039072D-15,             35P    122
-14.142135623731D0,14.142135623731D0,0.0D0,0.0D0,                     35P    123
3.6742346141748D0,0.0D0,1.0D0;                                        35P    124
126,2,2,1,0,0,0,0.0D0,0.0D0,0.0D0,1.0D0,1.0D0,1.0D0,1.0D0,            37P    125
.70710678118655D0,1.0D0,-14.142135623731D0,14.142135623731D0,         37P    126
0.0D0,0.0D0,28.284271247462D0,0.0D0,14.142135623731D0,                37P    127
14.142135623731D0,0.0D0,0.0D0,1.0D0,0.0D0,0.0D0,1.0D0;                37P    128
126,1,1,0,0,1,0,0.0D0,0.0D0,1.0D0,1.0D0,1.0D0,1.0D0,0.0D0,1.0D0,      39P    129
0.0D0,0.0D0,0.0D0,0.0D0,0.0D0,1.0D0,0.0D0,0.0D0,0.0D0;                39P    130
126,1,1,0,0,1,0,0.0D0,0.0D0,1.0D0,1.0D0,1.0D0,1.0D0,0.0D0,0.0D0,      41P    131
0.0D0,3.6742346141748D0,0.0D0,0.0D0,0.0D0,1.0D0,0.0D0,0.0D0,          41P    132
0.0D0;                                                                41P    133
126,1,1,0,0,1,0,0.0D0,0.0D0,1.0D0,1.0D0,1.0D0,1.0D0,                  43P    134
3.6742346141748D0,0.0D0,0.0D0,3.6742346141748D0,1.0D0,0.0D0,          43P    135
0.0D0,1.0D0,0.0D0,0.0D0,0.0D0;                                        43P    136
508,3,0,7,4,1,1,1,39,0,7,3,0,1,1,41,0,7,4,0,1,1,43;                   45P    137
510,35,1,1,45;                                                        47P    138
514,3,19,1,33,1,47,1;                                                 49P    139
186,49,1,0;                                                           51P    140
314,100.0D0,66.0000026226044D0,0.0D0,13HGOLDEN_ORANGE;                53P    141
S      1G      3D     54P    141                                        T      1
